ISO-10303-21;
HEADER;
FILE_DESCRIPTION(('FreeCAD Model'),'2;1');
FILE_NAME('Open CASCADE Shape Model','2023-11-28T10:14:01',('Author'),(
    ''),'Open CASCADE STEP processor 7.6','FreeCAD','Unknown');
FILE_SCHEMA(('AUTOMOTIVE_DESIGN { 1 0 10303 214 1 1 1 1 }'));
ENDSEC;
DATA;
#1 = APPLICATION_PROTOCOL_DEFINITION('international standard',
  'automotive_design',2000,#2);
#2 = APPLICATION_CONTEXT(
  'core data for automotive mechanical design processes');
#3 = SHAPE_DEFINITION_REPRESENTATION(#4,#10);
#4 = PRODUCT_DEFINITION_SHAPE('','',#5);
#5 = PRODUCT_DEFINITION('design','',#6,#9);
#6 = PRODUCT_DEFINITION_FORMATION('','',#7);
#7 = PRODUCT('Body','Body','',(#8));
#8 = PRODUCT_CONTEXT('',#2,'mechanical');
#9 = PRODUCT_DEFINITION_CONTEXT('part definition',#2,'design');
#10 = ADVANCED_BREP_SHAPE_REPRESENTATION('',(#11,#15),#301);
#11 = AXIS2_PLACEMENT_3D('',#12,#13,#14);
#12 = CARTESIAN_POINT('',(0.,0.,0.));
#13 = DIRECTION('',(0.,0.,1.));
#14 = DIRECTION('',(1.,0.,-0.));
#15 = MANIFOLD_SOLID_BREP('',#16);
#16 = CLOSED_SHELL('',(#17,#59,#90,#121,#152,#183,#214,#247,#269,#285));
#17 = ADVANCED_FACE('',(#18),#54,.F.);
#18 = FACE_BOUND('',#19,.T.);
#19 = EDGE_LOOP('',(#20,#30,#39,#47));
#20 = ORIENTED_EDGE('',*,*,#21,.T.);
#21 = EDGE_CURVE('',#22,#24,#26,.T.);
#22 = VERTEX_POINT('',#23);
#23 = CARTESIAN_POINT('',(-3.E-15,-1.81,3.43));
#24 = VERTEX_POINT('',#25);
#25 = CARTESIAN_POINT('',(5.65,-1.81,3.43));
#26 = LINE('',#27,#28);
#27 = CARTESIAN_POINT('',(-2.31E-15,-1.81,3.43));
#28 = VECTOR('',#29,1.);
#29 = DIRECTION('',(1.,-4.4E-16,3.9E-16));
#30 = ORIENTED_EDGE('',*,*,#31,.T.);
#31 = EDGE_CURVE('',#24,#32,#34,.T.);
#32 = VERTEX_POINT('',#33);
#33 = CARTESIAN_POINT('',(5.65,-0.88,3.78));
#34 = CIRCLE('',#35,0.594082654077);
#35 = AXIS2_PLACEMENT_3D('',#36,#37,#38);
#36 = CARTESIAN_POINT('',(5.65,-1.459722033239,3.909832831179));
#37 = DIRECTION('',(1.,2.2E-16,3.3E-16));
#38 = DIRECTION('',(-2.2E-16,1.,-3.3E-16));
#39 = ORIENTED_EDGE('',*,*,#40,.F.);
#40 = EDGE_CURVE('',#41,#32,#43,.T.);
#41 = VERTEX_POINT('',#42);
#42 = CARTESIAN_POINT('',(-2.E-15,-0.88,3.78));
#43 = LINE('',#44,#45);
#44 = CARTESIAN_POINT('',(-2.29E-15,-0.88,3.78));
#45 = VECTOR('',#46,1.);
#46 = DIRECTION('',(1.,-4.4E-16,3.9E-16));
#47 = ORIENTED_EDGE('',*,*,#48,.F.);
#48 = EDGE_CURVE('',#22,#41,#49,.T.);
#49 = CIRCLE('',#50,0.594082654077);
#50 = AXIS2_PLACEMENT_3D('',#51,#52,#53);
#51 = CARTESIAN_POINT('',(-9.8E-16,-1.459722033239,3.909832831179));
#52 = DIRECTION('',(1.,2.2E-16,3.3E-16));
#53 = DIRECTION('',(-2.2E-16,1.,-3.3E-16));
#54 = CYLINDRICAL_SURFACE('',#55,0.594082654077);
#55 = AXIS2_PLACEMENT_3D('',#56,#57,#58);
#56 = CARTESIAN_POINT('',(-2.49E-15,-1.459722033239,3.909832831179));
#57 = DIRECTION('',(-1.,2.2E-16,-5.6E-16));
#58 = DIRECTION('',(2.2E-16,1.,-5.6E-16));
#59 = ADVANCED_FACE('',(#60),#85,.F.);
#60 = FACE_BOUND('',#61,.F.);
#61 = EDGE_LOOP('',(#62,#72,#78,#79));
#62 = ORIENTED_EDGE('',*,*,#63,.T.);
#63 = EDGE_CURVE('',#64,#66,#68,.T.);
#64 = VERTEX_POINT('',#65);
#65 = CARTESIAN_POINT('',(-3.E-15,-0.88,5.39));
#66 = VERTEX_POINT('',#67);
#67 = CARTESIAN_POINT('',(5.65,-0.88,5.39));
#68 = LINE('',#69,#70);
#69 = CARTESIAN_POINT('',(-3.19E-15,-0.88,5.39));
#70 = VECTOR('',#71,1.);
#71 = DIRECTION('',(1.,-4.4E-16,3.9E-16));
#72 = ORIENTED_EDGE('',*,*,#73,.T.);
#73 = EDGE_CURVE('',#66,#32,#74,.T.);
#74 = LINE('',#75,#76);
#75 = CARTESIAN_POINT('',(5.65,-0.88,5.39));
#76 = VECTOR('',#77,1.);
#77 = DIRECTION('',(3.3E-16,1.1E-16,-1.));
#78 = ORIENTED_EDGE('',*,*,#40,.F.);
#79 = ORIENTED_EDGE('',*,*,#80,.F.);
#80 = EDGE_CURVE('',#64,#41,#81,.T.);
#81 = LINE('',#82,#83);
#82 = CARTESIAN_POINT('',(-1.6E-15,-0.88,5.39));
#83 = VECTOR('',#84,1.);
#84 = DIRECTION('',(3.3E-16,1.1E-16,-1.));
#85 = PLANE('',#86);
#86 = AXIS2_PLACEMENT_3D('',#87,#88,#89);
#87 = CARTESIAN_POINT('',(-3.19E-15,-0.88,5.39));
#88 = DIRECTION('',(4.4E-16,1.,-3.3E-16));
#89 = DIRECTION('',(5.6E-16,-3.3E-16,-1.));
#90 = ADVANCED_FACE('',(#91),#116,.T.);
#91 = FACE_BOUND('',#92,.T.);
#92 = EDGE_LOOP('',(#93,#94,#102,#110));
#93 = ORIENTED_EDGE('',*,*,#63,.T.);
#94 = ORIENTED_EDGE('',*,*,#95,.T.);
#95 = EDGE_CURVE('',#66,#96,#98,.T.);
#96 = VERTEX_POINT('',#97);
#97 = CARTESIAN_POINT('',(5.65,2.32,5.39));
#98 = LINE('',#99,#100);
#99 = CARTESIAN_POINT('',(5.65,-0.88,5.39));
#100 = VECTOR('',#101,1.);
#101 = DIRECTION('',(-2.2E-16,1.,-3.3E-16));
#102 = ORIENTED_EDGE('',*,*,#103,.F.);
#103 = EDGE_CURVE('',#104,#96,#106,.T.);
#104 = VERTEX_POINT('',#105);
#105 = CARTESIAN_POINT('',(-2.E-15,2.32,5.39));
#106 = LINE('',#107,#108);
#107 = CARTESIAN_POINT('',(-2.48E-15,2.32,5.39));
#108 = VECTOR('',#109,1.);
#109 = DIRECTION('',(1.,-4.4E-16,3.9E-16));
#110 = ORIENTED_EDGE('',*,*,#111,.F.);
#111 = EDGE_CURVE('',#64,#104,#112,.T.);
#112 = LINE('',#113,#114);
#113 = CARTESIAN_POINT('',(-1.6E-15,-0.88,5.39));
#114 = VECTOR('',#115,1.);
#115 = DIRECTION('',(-2.2E-16,1.,-3.3E-16));
#116 = PLANE('',#117);
#117 = AXIS2_PLACEMENT_3D('',#118,#119,#120);
#118 = CARTESIAN_POINT('',(-3.19E-15,-0.88,5.39));
#119 = DIRECTION('',(-3.9E-16,5.6E-16,1.));
#120 = DIRECTION('',(2.2E-16,1.,-5.6E-16));
#121 = ADVANCED_FACE('',(#122),#147,.T.);
#122 = FACE_BOUND('',#123,.T.);
#123 = EDGE_LOOP('',(#124,#125,#133,#141));
#124 = ORIENTED_EDGE('',*,*,#103,.T.);
#125 = ORIENTED_EDGE('',*,*,#126,.T.);
#126 = EDGE_CURVE('',#96,#127,#129,.T.);
#127 = VERTEX_POINT('',#128);
#128 = CARTESIAN_POINT('',(5.65,2.32,1.E-15));
#129 = LINE('',#130,#131);
#130 = CARTESIAN_POINT('',(5.65,2.32,5.39));
#131 = VECTOR('',#132,1.);
#132 = DIRECTION('',(3.3E-16,1.1E-16,-1.));
#133 = ORIENTED_EDGE('',*,*,#134,.F.);
#134 = EDGE_CURVE('',#135,#127,#137,.T.);
#135 = VERTEX_POINT('',#136);
#136 = CARTESIAN_POINT('',(1.E-15,2.32,-2.E-15));
#137 = LINE('',#138,#139);
#138 = CARTESIAN_POINT('',(5.2E-16,2.32,-1.29E-15));
#139 = VECTOR('',#140,1.);
#140 = DIRECTION('',(1.,-4.4E-16,3.9E-16));
#141 = ORIENTED_EDGE('',*,*,#142,.F.);
#142 = EDGE_CURVE('',#104,#135,#143,.T.);
#143 = LINE('',#144,#145);
#144 = CARTESIAN_POINT('',(-2.31E-15,2.32,5.39));
#145 = VECTOR('',#146,1.);
#146 = DIRECTION('',(3.3E-16,1.1E-16,-1.));
#147 = PLANE('',#148);
#148 = AXIS2_PLACEMENT_3D('',#149,#150,#151);
#149 = CARTESIAN_POINT('',(-2.48E-15,2.32,5.39));
#150 = DIRECTION('',(4.4E-16,1.,-3.3E-16));
#151 = DIRECTION('',(5.6E-16,-3.3E-16,-1.));
#152 = ADVANCED_FACE('',(#153),#178,.T.);
#153 = FACE_BOUND('',#154,.T.);
#154 = EDGE_LOOP('',(#155,#156,#164,#172));
#155 = ORIENTED_EDGE('',*,*,#134,.T.);
#156 = ORIENTED_EDGE('',*,*,#157,.T.);
#157 = EDGE_CURVE('',#127,#158,#160,.T.);
#158 = VERTEX_POINT('',#159);
#159 = CARTESIAN_POINT('',(5.65,-3.E-15,2.E-15));
#160 = LINE('',#161,#162);
#161 = CARTESIAN_POINT('',(5.65,2.32,-1.7763568394E-15));
#162 = VECTOR('',#163,1.);
#163 = DIRECTION('',(2.2E-16,-1.,3.3E-16));
#164 = ORIENTED_EDGE('',*,*,#165,.F.);
#165 = EDGE_CURVE('',#166,#158,#168,.T.);
#166 = VERTEX_POINT('',#167);
#167 = CARTESIAN_POINT('',(0.,0.,0.));
#168 = LINE('',#169,#170);
#169 = CARTESIAN_POINT('',(0.,0.,0.));
#170 = VECTOR('',#171,1.);
#171 = DIRECTION('',(1.,-4.4E-16,3.9E-16));
#172 = ORIENTED_EDGE('',*,*,#173,.F.);
#173 = EDGE_CURVE('',#135,#166,#174,.T.);
#174 = LINE('',#175,#176);
#175 = CARTESIAN_POINT('',(-5.2E-16,2.32,-7.7E-16));
#176 = VECTOR('',#177,1.);
#177 = DIRECTION('',(2.2E-16,-1.,3.3E-16));
#178 = PLANE('',#179);
#179 = AXIS2_PLACEMENT_3D('',#180,#181,#182);
#180 = CARTESIAN_POINT('',(5.2E-16,2.32,-1.29E-15));
#181 = DIRECTION('',(3.9E-16,-5.6E-16,-1.));
#182 = DIRECTION('',(-2.2E-16,-1.,5.6E-16));
#183 = ADVANCED_FACE('',(#184),#209,.F.);
#184 = FACE_BOUND('',#185,.F.);
#185 = EDGE_LOOP('',(#186,#196,#202,#203));
#186 = ORIENTED_EDGE('',*,*,#187,.T.);
#187 = EDGE_CURVE('',#188,#190,#192,.T.);
#188 = VERTEX_POINT('',#189);
#189 = CARTESIAN_POINT('',(-1.E-14,-28.80999999998,2.38E-12));
#190 = VERTEX_POINT('',#191);
#191 = CARTESIAN_POINT('',(5.65,-28.80999999998,2.382E-12));
#192 = LINE('',#193,#194);
#193 = CARTESIAN_POINT('',(-6.4E-15,-28.80999999998,2.37677E-12));
#194 = VECTOR('',#195,1.);
#195 = DIRECTION('',(1.,-4.4E-16,3.9E-16));
#196 = ORIENTED_EDGE('',*,*,#197,.T.);
#197 = EDGE_CURVE('',#190,#158,#198,.T.);
#198 = LINE('',#199,#200);
#199 = CARTESIAN_POINT('',(5.65,-28.80999999998,2.36966002376E-12));
#200 = VECTOR('',#201,1.);
#201 = DIRECTION('',(-2.2E-16,1.,-8.228E-14));
#202 = ORIENTED_EDGE('',*,*,#165,.F.);
#203 = ORIENTED_EDGE('',*,*,#204,.F.);
#204 = EDGE_CURVE('',#188,#166,#205,.T.);
#205 = LINE('',#206,#207);
#206 = CARTESIAN_POINT('',(6.4E-15,-28.80999999998,2.37037E-12));
#207 = VECTOR('',#208,1.);
#208 = DIRECTION('',(-2.2E-16,1.,-8.228E-14));
#209 = PLANE('',#210);
#210 = AXIS2_PLACEMENT_3D('',#211,#212,#213);
#211 = CARTESIAN_POINT('',(-6.4E-15,-28.80999999998,2.37677E-12));
#212 = DIRECTION('',(-3.9E-16,8.25E-14,1.));
#213 = DIRECTION('',(2.2E-16,1.,-8.25E-14));
#214 = ADVANCED_FACE('',(#215),#242,.T.);
#215 = FACE_BOUND('',#216,.F.);
#216 = EDGE_LOOP('',(#217,#227,#234,#235));
#217 = ORIENTED_EDGE('',*,*,#218,.T.);
#218 = EDGE_CURVE('',#219,#221,#223,.T.);
#219 = VERTEX_POINT('',#220);
#220 = CARTESIAN_POINT('',(-9.E-15,-10.81,10.));
#221 = VERTEX_POINT('',#222);
#222 = CARTESIAN_POINT('',(5.65,-10.81,10.));
#223 = LINE('',#224,#225);
#224 = CARTESIAN_POINT('',(-7.95E-15,-10.81,10.));
#225 = VECTOR('',#226,1.);
#226 = DIRECTION('',(1.,-4.4E-16,3.9E-16));
#227 = ORIENTED_EDGE('',*,*,#228,.T.);
#228 = EDGE_CURVE('',#221,#190,#229,.T.);
#229 = CIRCLE('',#230,21.199999999983);
#230 = AXIS2_PLACEMENT_3D('',#231,#232,#233);
#231 = CARTESIAN_POINT('',(5.65,-10.81,-11.19999999998));
#232 = DIRECTION('',(1.,2.2E-16,3.3E-16));
#233 = DIRECTION('',(-2.2E-16,1.,-3.3E-16));
#234 = ORIENTED_EDGE('',*,*,#187,.F.);
#235 = ORIENTED_EDGE('',*,*,#236,.F.);
#236 = EDGE_CURVE('',#219,#188,#237,.T.);
#237 = CIRCLE('',#238,21.199999999983);
#238 = AXIS2_PLACEMENT_3D('',#239,#240,#241);
#239 = CARTESIAN_POINT('',(6.13E-15,-10.81,-11.19999999998));
#240 = DIRECTION('',(1.,2.2E-16,3.3E-16));
#241 = DIRECTION('',(-2.2E-16,1.,-3.3E-16));
#242 = CYLINDRICAL_SURFACE('',#243,21.199999999983);
#243 = AXIS2_PLACEMENT_3D('',#244,#245,#246);
#244 = CARTESIAN_POINT('',(3.82E-15,-10.81,-11.19999999998));
#245 = DIRECTION('',(-1.,2.2E-16,-5.6E-16));
#246 = DIRECTION('',(2.2E-16,1.,-5.6E-16));
#247 = ADVANCED_FACE('',(#248),#264,.F.);
#248 = FACE_BOUND('',#249,.F.);
#249 = EDGE_LOOP('',(#250,#251,#257,#258));
#250 = ORIENTED_EDGE('',*,*,#21,.T.);
#251 = ORIENTED_EDGE('',*,*,#252,.T.);
#252 = EDGE_CURVE('',#24,#221,#253,.T.);
#253 = LINE('',#254,#255);
#254 = CARTESIAN_POINT('',(5.65,-1.81,3.43));
#255 = VECTOR('',#256,1.);
#256 = DIRECTION('',(-2.E-17,-0.807686990835,0.58961150331));
#257 = ORIENTED_EDGE('',*,*,#218,.F.);
#258 = ORIENTED_EDGE('',*,*,#259,.F.);
#259 = EDGE_CURVE('',#22,#219,#260,.T.);
#260 = LINE('',#261,#262);
#261 = CARTESIAN_POINT('',(-7.4E-16,-1.81,3.43));
#262 = VECTOR('',#263,1.);
#263 = DIRECTION('',(-2.E-17,-0.807686990835,0.58961150331));
#264 = PLANE('',#265);
#265 = AXIS2_PLACEMENT_3D('',#266,#267,#268);
#266 = CARTESIAN_POINT('',(-2.31E-15,-1.81,3.43));
#267 = DIRECTION('',(5.E-17,-0.58961150331,-0.807686990835));
#268 = DIRECTION('',(-5.1E-16,-0.807686990835,0.58961150331));
#269 = ADVANCED_FACE('',(#270),#280,.F.);
#270 = FACE_BOUND('',#271,.T.);
#271 = EDGE_LOOP('',(#272,#273,#274,#275,#276,#277,#278,#279));
#272 = ORIENTED_EDGE('',*,*,#48,.T.);
#273 = ORIENTED_EDGE('',*,*,#80,.F.);
#274 = ORIENTED_EDGE('',*,*,#111,.T.);
#275 = ORIENTED_EDGE('',*,*,#142,.T.);
#276 = ORIENTED_EDGE('',*,*,#173,.T.);
#277 = ORIENTED_EDGE('',*,*,#204,.F.);
#278 = ORIENTED_EDGE('',*,*,#236,.F.);
#279 = ORIENTED_EDGE('',*,*,#259,.F.);
#280 = PLANE('',#281);
#281 = AXIS2_PLACEMENT_3D('',#282,#283,#284);
#282 = CARTESIAN_POINT('',(-1.88E-15,-12.14259023678,3.391724726634));
#283 = DIRECTION('',(1.,-4.4E-16,1.1E-16));
#284 = DIRECTION('',(-1.1E-16,-1.1E-16,1.));
#285 = ADVANCED_FACE('',(#286),#296,.T.);
#286 = FACE_BOUND('',#287,.F.);
#287 = EDGE_LOOP('',(#288,#289,#290,#291,#292,#293,#294,#295));
#288 = ORIENTED_EDGE('',*,*,#31,.T.);
#289 = ORIENTED_EDGE('',*,*,#73,.F.);
#290 = ORIENTED_EDGE('',*,*,#95,.T.);
#291 = ORIENTED_EDGE('',*,*,#126,.T.);
#292 = ORIENTED_EDGE('',*,*,#157,.T.);
#293 = ORIENTED_EDGE('',*,*,#197,.F.);
#294 = ORIENTED_EDGE('',*,*,#228,.F.);
#295 = ORIENTED_EDGE('',*,*,#252,.F.);
#296 = PLANE('',#297);
#297 = AXIS2_PLACEMENT_3D('',#298,#299,#300);
#298 = CARTESIAN_POINT('',(5.65,-12.14259023678,3.391724726634));
#299 = DIRECTION('',(1.,-4.4E-16,1.1E-16));
#300 = DIRECTION('',(-1.1E-16,-1.1E-16,1.));
#301 = ( GEOMETRIC_REPRESENTATION_CONTEXT(3) 
GLOBAL_UNCERTAINTY_ASSIGNED_CONTEXT((#305)) GLOBAL_UNIT_ASSIGNED_CONTEXT
((#302,#303,#304)) REPRESENTATION_CONTEXT('Context #1',
  '3D Context with UNIT and UNCERTAINTY') );
#302 = ( LENGTH_UNIT() NAMED_UNIT(*) SI_UNIT(.MILLI.,.METRE.) );
#303 = ( NAMED_UNIT(*) PLANE_ANGLE_UNIT() SI_UNIT($,.RADIAN.) );
#304 = ( NAMED_UNIT(*) SI_UNIT($,.STERADIAN.) SOLID_ANGLE_UNIT() );
#305 = UNCERTAINTY_MEASURE_WITH_UNIT(LENGTH_MEASURE(1.E-07),#302,
  'distance_accuracy_value','confusion accuracy');
#306 = PRODUCT_RELATED_PRODUCT_CATEGORY('part',$,(#7));
#307 = MECHANICAL_DESIGN_GEOMETRIC_PRESENTATION_REPRESENTATION('',(#308)
  ,#301);
#308 = STYLED_ITEM('color',(#309),#15);
#309 = PRESENTATION_STYLE_ASSIGNMENT((#310,#316));
#310 = SURFACE_STYLE_USAGE(.BOTH.,#311);
#311 = SURFACE_SIDE_STYLE('',(#312));
#312 = SURFACE_STYLE_FILL_AREA(#313);
#313 = FILL_AREA_STYLE('',(#314));
#314 = FILL_AREA_STYLE_COLOUR('',#315);
#315 = COLOUR_RGB('',0.800000010877,0.800000010877,0.800000010877);
#316 = CURVE_STYLE('',#317,POSITIVE_LENGTH_MEASURE(0.1),#318);
#317 = DRAUGHTING_PRE_DEFINED_CURVE_FONT('continuous');
#318 = COLOUR_RGB('',9.803921802644E-02,9.803921802644E-02,
  9.803921802644E-02);
ENDSEC;
END-ISO-10303-21;
